ISO-10303-21;
HEADER;
FILE_DESCRIPTION (( 'STEP AP203' ),
    '1' );
FILE_NAME ('250814 STEP 3-400575-00_6822.STEP',
    '2025-08-14T09:59:43',
    ( '' ),
    ( '' ),
    'SwSTEP 2.0',
    'SolidWorks 2024',
    '' );
FILE_SCHEMA (( 'CONFIG_CONTROL_DESIGN' ));
ENDSEC;

DATA;
#1 = EDGE_LOOP ( 'NONE', ( #311 ) ) ;
#2 = APPROVAL_PERSON_ORGANIZATION ( #32, #301, #280 ) ;
#3 = ORIENTED_EDGE ( 'NONE', *, *, #155, .F. ) ;
#4 = APPROVAL_STATUS ( 'not_yet_approved' ) ;
#5 = DIRECTION ( 'NONE',  ( -0.000000000000000000, -0.000000000000000000, 1.000000000000000000 ) ) ;
#6 = CARTESIAN_POINT ( 'NONE',  ( 0.000000000000000000, 0.000000000000000000, 4.214656965084286000 ) ) ;
#7 = PERSON_AND_ORGANIZATION_ROLE ( 'creator' ) ;
#8 = PERSON_AND_ORGANIZATION ( #84, #134 ) ;
#9 = ADVANCED_FACE ( 'NONE', ( #188, #79 ), #281, .F. ) ;
#10 = CARTESIAN_POINT ( 'NONE',  ( 0.000000000000000000, 0.000000000000000000, -4.214656965084277118 ) ) ;
#11 = DIRECTION ( 'NONE',  ( -0.000000000000000000, -0.000000000000000000, -1.000000000000000000 ) ) ;
#13 = EDGE_CURVE ( 'NONE', #244, #244, #130, .T. ) ;
#12 = FACE_OUTER_BOUND ( 'NONE', #141, .T. ) ;
#14 = DIRECTION ( 'NONE',  ( 0.000000000000000000, 0.000000000000000000, 1.000000000000000000 ) ) ;
#15 = AXIS2_PLACEMENT_3D ( 'NONE', #54, #168, #329 ) ;
#16 = CARTESIAN_POINT ( 'NONE',  ( 0.000000000000000000, 0.000000000000000000, -4.214656965084277118 ) ) ;
#17 = EDGE_CURVE ( 'NONE', #240, #240, #113, .T. ) ;
#18 = DIRECTION ( 'NONE',  ( 1.000000000000000000, 0.000000000000000000, 0.000000000000000000 ) ) ;
#19 = CARTESIAN_POINT ( 'NONE',  ( 10.75000000000000000, 0.000000000000000000, 8.250000000000000000 ) ) ;
#20 = EDGE_LOOP ( 'NONE', ( #102 ) ) ;
#21 = CIRCLE ( 'NONE', #112, 5.000000000000000000 ) ;
#22 = CARTESIAN_POINT ( 'NONE',  ( 10.75000000000000000, 0.000000000000000000, 4.500000000000000000 ) ) ;
#23 = AXIS2_PLACEMENT_3D ( 'NONE', #6, #136, #286 ) ;
#24 = EDGE_LOOP ( 'NONE', ( #47 ) ) ;
#25 = DIRECTION ( 'NONE',  ( 1.000000000000000000, 0.000000000000000000, 0.000000000000000000 ) ) ;
#26 = CARTESIAN_POINT ( 'NONE',  ( 0.000000000000000000, 0.000000000000000000, -8.250000000000000000 ) ) ;
#27 = CARTESIAN_POINT ( 'NONE',  ( 0.000000000000000000, 0.000000000000000000, 8.250000000000000000 ) ) ;
#28 = DIRECTION ( 'NONE',  ( 0.000000000000000000, 0.000000000000000000, 1.000000000000000000 ) ) ;
#29 = ORIENTED_EDGE ( 'NONE', *, *, #65, .T. ) ;
#30 = APPLICATION_CONTEXT ( 'configuration controlled 3d designs of mechanical parts and assemblies' ) ;
#31 = EDGE_CURVE ( 'NONE', #299, #299, #270, .T. ) ;
#32 = PERSON_AND_ORGANIZATION ( #84, #134 ) ;
#33 = ORIENTED_EDGE ( 'NONE', *, *, #90, .F. ) ;
#34 = DATE_AND_TIME ( #249, #266 ) ;
#35 = CALENDAR_DATE ( 2025, 14, 8 ) ;
#36 = PRODUCT_DEFINITION ( 'UNKNOWN', '', #177, #49 ) ;
#37 = CIRCLE ( 'NONE', #287, 5.000000000000000000 ) ;
#38 = CARTESIAN_POINT ( 'NONE',  ( 0.000000000000000000, 0.000000000000000000, 8.250000000000000000 ) ) ;
#39 = DIRECTION ( 'NONE',  ( -0.000000000000000000, -0.000000000000000000, 1.000000000000000000 ) ) ;
#40 = FACE_OUTER_BOUND ( 'NONE', #272, .T. ) ;
#41 = DIRECTION ( 'NONE',  ( 1.000000000000000000, 0.000000000000000000, 0.000000000000000000 ) ) ;
#42 = DIRECTION ( 'NONE',  ( 1.000000000000000000, 0.000000000000000000, 0.000000000000000000 ) ) ;
#43 = EDGE_CURVE ( 'NONE', #97, #97, #225, .T. ) ;
#44 = APPROVAL_PERSON_ORGANIZATION ( #314, #232, #171 ) ;
#45 = FACE_OUTER_BOUND ( 'NONE', #304, .T. ) ;
#46 = DIRECTION ( 'NONE',  ( 1.000000000000000000, 0.000000000000000000, 0.000000000000000000 ) ) ;
#47 = ORIENTED_EDGE ( 'NONE', *, *, #17, .T. ) ;
#48 = PRODUCT_RELATED_PRODUCT_CATEGORY ( 'detail', '', ( #292 ) ) ;
#49 = DESIGN_CONTEXT ( 'detailed design', #30, 'design' ) ;
#50 = AXIS2_PLACEMENT_3D ( 'NONE', #195, #118, #308 ) ;
#51 = DIRECTION ( 'NONE',  ( 0.000000000000000000, 0.000000000000000000, 1.000000000000000000 ) ) ;
#52 = CLOSED_SHELL ( 'NONE', ( #9, #163, #127, #261, #180, #95, #316, #247, #74, #208, #284, #146 ) ) ;
#53 = DIRECTION ( 'NONE',  ( 1.000000000000000000, 0.000000000000000000, 0.000000000000000000 ) ) ;
#54 = CARTESIAN_POINT ( 'NONE',  ( 0.000000000000000000, 0.000000000000000000, 8.250000000000000000 ) ) ;
#55 = ORIENTED_EDGE ( 'NONE', *, *, #199, .T. ) ;
#56 = APPROVAL_DATE_TIME ( #194, #301 ) ;
#57 = DIRECTION ( 'NONE',  ( 1.000000000000000000, 0.000000000000000000, 0.000000000000000000 ) ) ;
#58 = SECURITY_CLASSIFICATION ( '', '', #309 ) ;
#59 = DIRECTION ( 'NONE',  ( -0.000000000000000000, -0.000000000000000000, 1.000000000000000000 ) ) ;
#60 = PERSON_AND_ORGANIZATION_ROLE ( 'creator' ) ;
#61 = ADVANCED_BREP_SHAPE_REPRESENTATION ( '250814 STEP 3-400575-00_6822', ( #263, #85 ), #312 ) ;
#62 = CARTESIAN_POINT ( 'NONE',  ( 0.000000000000000000, 0.000000000000000000, -0.6928203230275477020 ) ) ;
#63 = PRODUCT_DEFINITION_SHAPE ( 'NONE', 'NONE',  #36 ) ;
#64 = FACE_OUTER_BOUND ( 'NONE', #213, .T. ) ;
#65 = EDGE_CURVE ( 'NONE', #302, #302, #279, .T. ) ;
#66 = FACE_OUTER_BOUND ( 'NONE', #147, .T. ) ;
#67 = AXIS2_PLACEMENT_3D ( 'NONE', #242, #39, #178 ) ;
#68 = AXIS2_PLACEMENT_3D ( 'NONE', #76, #276, #57 ) ;
#69 = CYLINDRICAL_SURFACE ( 'NONE', #255, 5.000000000000000000 ) ;
#70 = DIRECTION ( 'NONE',  ( 1.000000000000000000, 0.000000000000000000, 0.000000000000000000 ) ) ;
#71 = CC_DESIGN_SECURITY_CLASSIFICATION ( #58, ( #177 ) ) ;
#72 = CARTESIAN_POINT ( 'NONE',  ( 28.39999999999998792, 0.000000000000000000, 0.6928203230275536972 ) ) ;
#73 = ORIENTED_EDGE ( 'NONE', *, *, #183, .F. ) ;
#74 = ADVANCED_FACE ( 'NONE', ( #80, #278 ), #305, .F. ) ;
#75 = MECHANICAL_CONTEXT ( 'NONE', #315, 'mechanical' ) ;
#76 = CARTESIAN_POINT ( 'NONE',  ( 0.000000000000000000, 0.000000000000000000, -8.250000000000000000 ) ) ;
#77 = CARTESIAN_POINT ( 'NONE',  ( 34.50000000000000000, 0.000000000000000000, 8.250000000000000000 ) ) ;
#78 = EDGE_LOOP ( 'NONE', ( #100 ) ) ;
#79 = FACE_OUTER_BOUND ( 'NONE', #306, .T. ) ;
#80 = FACE_OUTER_BOUND ( 'NONE', #328, .T. ) ;
#81 = ORIENTED_EDGE ( 'NONE', *, *, #219, .F. ) ;
#82 = APPROVAL_STATUS ( 'not_yet_approved' ) ;
#83 = CALENDAR_DATE ( 2025, 14, 8 ) ;
#84 = PERSON ( 'UNSPECIFIED', 'UNSPECIFIED', 'UNSPECIFIED', ('UNSPECIFIED'), ('UNSPECIFIED'), ('UNSPECIFIED') ) ;
#85 = AXIS2_PLACEMENT_3D ( 'NONE', #139, #236, #18 ) ;
#87 = EDGE_CURVE ( 'NONE', #237, #237, #158, .T. ) ;
#86 = PLANE ( 'NONE',  #169 ) ;
#88 = CYLINDRICAL_SURFACE ( 'NONE', #145, 10.75000000000000000 ) ;
#89 = DIRECTION ( 'NONE',  ( -0.000000000000000000, -0.000000000000000000, 1.000000000000000000 ) ) ;
#90 = EDGE_CURVE ( 'NONE', #294, #294, #320, .T. ) ;
#91 = AXIS2_PLACEMENT_3D ( 'NONE', #250, #59, #196 ) ;
#92 = FACE_BOUND ( 'NONE', #20, .T. ) ;
#93 = DIRECTION ( 'NONE',  ( 1.000000000000000000, 0.000000000000000000, 0.000000000000000000 ) ) ;
#94 = CARTESIAN_POINT ( 'NONE',  ( 5.000000000000000000, 0.000000000000000000, 4.500000000000000000 ) ) ;
#95 = ADVANCED_FACE ( 'NONE', ( #133, #66 ), #197, .T. ) ;
#96 = EDGE_LOOP ( 'NONE', ( #121 ) ) ;
#97 = VERTEX_POINT ( 'NONE', #164 ) ;
#98 = ORIENTED_EDGE ( 'NONE', *, *, #65, .F. ) ;
#99 = EDGE_LOOP ( 'NONE', ( #215 ) ) ;
#100 = ORIENTED_EDGE ( 'NONE', *, *, #87, .F. ) ;
#101 = DATE_AND_TIME ( #83, #129 ) ;
#102 = ORIENTED_EDGE ( 'NONE', *, *, #13, .T. ) ;
#103 = SHAPE_DEFINITION_REPRESENTATION ( #63, #61 ) ;
#104 = AXIS2_PLACEMENT_3D ( 'NONE', #108, #231, #290 ) ;
#105 = AXIS2_PLACEMENT_3D ( 'NONE', #26, #5, #53 ) ;
#106 = COORDINATED_UNIVERSAL_TIME_OFFSET ( 2, 0, .AHEAD. ) ;
#107 = CC_DESIGN_DATE_AND_TIME_ASSIGNMENT ( #198, #252, ( #36 ) ) ;
#108 = CARTESIAN_POINT ( 'NONE',  ( 0.000000000000000000, 0.000000000000000000, 4.500000000000000000 ) ) ;
#109 = DIRECTION ( 'NONE',  ( 1.000000000000000000, 0.000000000000000000, 0.000000000000000000 ) ) ;
#110 = FACE_BOUND ( 'NONE', #99, .T. ) ;
#111 = CARTESIAN_POINT ( 'NONE',  ( 0.000000000000000000, 0.000000000000000000, -4.500000000000000000 ) ) ;
#112 = AXIS2_PLACEMENT_3D ( 'NONE', #182, #179, #93 ) ;
#113 = CIRCLE ( 'NONE', #234, 10.75000000000000000 ) ;
#114 = CYLINDRICAL_SURFACE ( 'NONE', #191, 34.50000000000000000 ) ;
#115 = CARTESIAN_POINT ( 'NONE',  ( 34.50000000000000000, 0.000000000000000000, -8.250000000000000000 ) ) ;
#116 = PLANE ( 'NONE',  #207 ) ;
#117 = CARTESIAN_POINT ( 'NONE',  ( 5.000000000000000000, 0.000000000000000000, -4.500000000000000000 ) ) ;
#118 = DIRECTION ( 'NONE',  ( -0.000000000000000000, -0.000000000000000000, -1.000000000000000000 ) ) ;
#119 = CARTESIAN_POINT ( 'NONE',  ( 34.50000000000000000, 0.000000000000000000, -4.214656965084277118 ) ) ;
#120 = APPROVAL ( #4, 'UNSPECIFIED' ) ;
#121 = ORIENTED_EDGE ( 'NONE', *, *, #43, .F. ) ;
#122 = DIRECTION ( 'NONE',  ( 1.000000000000000000, 0.000000000000000000, 0.000000000000000000 ) ) ;
#123 = DIRECTION ( 'NONE',  ( -0.000000000000000000, -0.000000000000000000, 1.000000000000000000 ) ) ;
#124 = PERSON_AND_ORGANIZATION ( #84, #134 ) ;
#125 = EDGE_LOOP ( 'NONE', ( #33 ) ) ;
#126 = PERSON_AND_ORGANIZATION ( #84, #134 ) ;
#127 = ADVANCED_FACE ( 'NONE', ( #321, #132 ), #289, .T. ) ;
#128 = COORDINATED_UNIVERSAL_TIME_OFFSET ( 2, 0, .AHEAD. ) ;
#129 = LOCAL_TIME ( 12, 59, 43.00000000000000000, #222 ) ;
#130 = CIRCLE ( 'NONE', #105, 10.75000000000000000 ) ;
#131 = CC_DESIGN_PERSON_AND_ORGANIZATION_ASSIGNMENT ( #307, #226, ( #292 ) ) ;
#132 = FACE_BOUND ( 'NONE', #1, .T. ) ;
#133 = FACE_BOUND ( 'NONE', #96, .T. ) ;
#134 = ORGANIZATION ( 'UNSPECIFIED', 'UNSPECIFIED', '' ) ;
#135 = CIRCLE ( 'NONE', #303, 28.39999999999998792 ) ;
#136 = DIRECTION ( 'NONE',  ( -0.000000000000000000, -0.000000000000000000, 1.000000000000000000 ) ) ;
#137 = PLANE ( 'NONE',  #104 ) ;
#138 = FACE_OUTER_BOUND ( 'NONE', #125, .T. ) ;
#139 = CARTESIAN_POINT ( 'NONE',  ( 0.000000000000000000, 0.000000000000000000, 0.000000000000000000 ) ) ;
#140 = CARTESIAN_POINT ( 'NONE',  ( 10.75000000000000000, 0.000000000000000000, -8.250000000000000000 ) ) ;
#141 = EDGE_LOOP ( 'NONE', ( #248 ) ) ;
#142 = DIRECTION ( 'NONE',  ( -0.000000000000000000, -0.000000000000000000, 1.000000000000000000 ) ) ;
#143 = CIRCLE ( 'NONE', #15, 10.75000000000000000 ) ;
#144 =( NAMED_UNIT ( * ) PLANE_ANGLE_UNIT ( ) SI_UNIT ( $, .RADIAN. ) );
#145 = AXIS2_PLACEMENT_3D ( 'NONE', #157, #288, #70 ) ;
#146 = ADVANCED_FACE ( 'NONE', ( #12, #64 ), #69, .F. ) ;
#147 = EDGE_LOOP ( 'NONE', ( #55 ) ) ;
#148 = ORIENTED_EDGE ( 'NONE', *, *, #90, .T. ) ;
#149 = COORDINATED_UNIVERSAL_TIME_OFFSET ( 2, 0, .AHEAD. ) ;
#150 = ORIENTED_EDGE ( 'NONE', *, *, #31, .T. ) ;
#151 = COORDINATED_UNIVERSAL_TIME_OFFSET ( 2, 0, .AHEAD. ) ;
#152 = DIRECTION ( 'NONE',  ( -1.000000000000000000, 0.000000000000000000, -0.000000000000000000 ) ) ;
#153 = APPROVAL_STATUS ( 'not_yet_approved' ) ;
#154 = DATE_TIME_ROLE ( 'classification_date' ) ;
#155 = EDGE_CURVE ( 'NONE', #323, #323, #21, .T. ) ;
#156 = DIRECTION ( 'NONE',  ( -0.000000000000000000, -0.000000000000000000, 1.000000000000000000 ) ) ;
#157 = CARTESIAN_POINT ( 'NONE',  ( 0.000000000000000000, 0.000000000000000000, 8.250000000000000000 ) ) ;
#158 = CIRCLE ( 'NONE', #23, 34.50000000000000000 ) ;
#159 = AXIS2_PLACEMENT_3D ( 'NONE', #201, #265, #42 ) ;
#160 = CARTESIAN_POINT ( 'NONE',  ( 0.000000000000000000, 0.000000000000000000, 0.6928203230275536972 ) ) ;
#161 = EDGE_LOOP ( 'NONE', ( #264 ) ) ;
#162 = PLANE ( 'NONE',  #159 ) ;
#163 = ADVANCED_FACE ( 'NONE', ( #293, #259 ), #88, .F. ) ;
#164 = CARTESIAN_POINT ( 'NONE',  ( 28.39999999999999858, 0.000000000000000000, -0.6928203230275477020 ) ) ;
#165 = VERTEX_POINT ( 'NONE', #119 ) ;
#166 = VERTEX_POINT ( 'NONE', #19 ) ;
#167 = ORIENTED_EDGE ( 'NONE', *, *, #43, .T. ) ;
#168 = DIRECTION ( 'NONE',  ( -0.000000000000000000, -0.000000000000000000, 1.000000000000000000 ) ) ;
#169 = AXIS2_PLACEMENT_3D ( 'NONE', #322, #204, #152 ) ;
#170 = EDGE_LOOP ( 'NONE', ( #238 ) ) ;
#171 = APPROVAL_ROLE ( '' ) ;
#172 = CARTESIAN_POINT ( 'NONE',  ( 0.000000000000000000, 0.000000000000000000, 4.500000000000000000 ) ) ;
#173 = APPLICATION_PROTOCOL_DEFINITION ( 'international standard', 'config_control_design', 1994, #30 ) ;
#174 = EDGE_LOOP ( 'NONE', ( #150 ) ) ;
#175 = CC_DESIGN_DATE_AND_TIME_ASSIGNMENT ( #313, #154, ( #58 ) ) ;
#176 = PERSON_AND_ORGANIZATION ( #84, #134 ) ;
#177 = PRODUCT_DEFINITION_FORMATION_WITH_SPECIFIED_SOURCE ( 'ANY', '', #292, .NOT_KNOWN. ) ;
#178 = DIRECTION ( 'NONE',  ( 1.000000000000000000, 0.000000000000000000, 0.000000000000000000 ) ) ;
#179 = DIRECTION ( 'NONE',  ( 0.000000000000000000, 0.000000000000000000, 1.000000000000000000 ) ) ;
#180 = ADVANCED_FACE ( 'NONE', ( #110, #40 ), #86, .F. ) ;
#181 = FACE_BOUND ( 'NONE', #235, .T. ) ;
#182 = CARTESIAN_POINT ( 'NONE',  ( 0.000000000000000000, 0.000000000000000000, 4.500000000000000000 ) ) ;
#183 = EDGE_CURVE ( 'NONE', #273, #273, #135, .T. ) ;
#184 = DIRECTION ( 'NONE',  ( 1.000000000000000000, 0.000000000000000000, 0.000000000000000000 ) ) ;
#185 = UNCERTAINTY_MEASURE_WITH_UNIT (LENGTH_MEASURE( 1.000000000000000082E-05 ), #269, 'distance_accuracy_value', 'NONE');
#186 = FACE_OUTER_BOUND ( 'NONE', #174, .T. ) ;
#187 = APPLICATION_PROTOCOL_DEFINITION ( 'international standard', 'config_control_design', 1994, #315 ) ;
#188 = FACE_OUTER_BOUND ( 'NONE', #190, .T. ) ;
#189 = CARTESIAN_POINT ( 'NONE',  ( 0.000000000000000000, 0.000000000000000000, -4.500000000000000000 ) ) ;
#190 = EDGE_LOOP ( 'NONE', ( #274 ) ) ;
#191 = AXIS2_PLACEMENT_3D ( 'NONE', #209, #317, #25 ) ;
#192 = LOCAL_TIME ( 12, 59, 43.00000000000000000, #128 ) ;
#193 = EDGE_LOOP ( 'NONE', ( #245 ) ) ;
#194 = DATE_AND_TIME ( #254, #192 ) ;
#195 = CARTESIAN_POINT ( 'NONE',  ( 0.000000000000000000, 0.000000000000000000, -4.500000000000000888 ) ) ;
#196 = DIRECTION ( 'NONE',  ( 1.000000000000000000, 0.000000000000000000, 0.000000000000000000 ) ) ;
#197 = CONICAL_SURFACE ( 'NONE', #206, 34.50000000000000000, 1.047197551196596521 ) ;
#198 = DATE_AND_TIME ( #35, #218 ) ;
#199 = EDGE_CURVE ( 'NONE', #165, #165, #324, .T. ) ;
#200 = APPROVAL_ROLE ( '' ) ;
#201 = CARTESIAN_POINT ( 'NONE',  ( 0.000000000000000000, 11.00000000000000000, -8.250000000000000000 ) ) ;
#203 = DIRECTION ( 'NONE',  ( 1.000000000000000000, 0.000000000000000000, 0.000000000000000000 ) ) ;
#202 = CC_DESIGN_PERSON_AND_ORGANIZATION_ASSIGNMENT ( #126, #283, ( #58 ) ) ;
#204 = DIRECTION ( 'NONE',  ( 0.000000000000000000, 0.000000000000000000, -1.000000000000000000 ) ) ;
#205 = FACE_OUTER_BOUND ( 'NONE', #221, .T. ) ;
#206 = AXIS2_PLACEMENT_3D ( 'NONE', #16, #230, #229 ) ;
#207 = AXIS2_PLACEMENT_3D ( 'NONE', #189, #51, #246 ) ;
#208 = ADVANCED_FACE ( 'NONE', ( #319, #181 ), #137, .T. ) ;
#209 = CARTESIAN_POINT ( 'NONE',  ( 0.000000000000000000, 0.000000000000000000, 8.250000000000000000 ) ) ;
#210 = FACE_BOUND ( 'NONE', #298, .T. ) ;
#211 = ORIENTED_EDGE ( 'NONE', *, *, #219, .T. ) ;
#212 = AXIS2_PLACEMENT_3D ( 'NONE', #27, #142, #46 ) ;
#213 = EDGE_LOOP ( 'NONE', ( #81 ) ) ;
#214 =( NAMED_UNIT ( * ) SI_UNIT ( $, .STERADIAN. ) SOLID_ANGLE_UNIT ( ) );
#215 = ORIENTED_EDGE ( 'NONE', *, *, #296, .F. ) ;
#216 = CARTESIAN_POINT ( 'NONE',  ( 34.50000000000000000, 0.000000000000000000, 4.214656965084286000 ) ) ;
#217 = EDGE_LOOP ( 'NONE', ( #325 ) ) ;
#218 = LOCAL_TIME ( 12, 59, 43.00000000000000000, #151 ) ;
#219 = EDGE_CURVE ( 'NONE', #268, #268, #37, .T. ) ;
#220 = DIRECTION ( 'NONE',  ( 1.000000000000000000, 0.000000000000000000, 0.000000000000000000 ) ) ;
#221 = EDGE_LOOP ( 'NONE', ( #291 ) ) ;
#222 = COORDINATED_UNIVERSAL_TIME_OFFSET ( 2, 0, .AHEAD. ) ;
#223 = AXIS2_PLACEMENT_3D ( 'NONE', #160, #318, #285 ) ;
#224 = PERSON_AND_ORGANIZATION ( #84, #134 ) ;
#225 = CIRCLE ( 'NONE', #258, 28.39999999999999858 ) ;
#226 = PERSON_AND_ORGANIZATION_ROLE ( 'design_owner' ) ;
#227 = CARTESIAN_POINT ( 'NONE',  ( 0.000000000000000000, 0.000000000000000000, 0.6928203230275536972 ) ) ;
#228 = APPROVAL_PERSON_ORGANIZATION ( #224, #120, #200 ) ;
#229 = DIRECTION ( 'NONE',  ( -1.000000000000000000, 0.000000000000000000, 0.000000000000000000 ) ) ;
#230 = DIRECTION ( 'NONE',  ( 0.000000000000000000, 0.000000000000000000, -1.000000000000000000 ) ) ;
#231 = DIRECTION ( 'NONE',  ( 0.000000000000000000, 0.000000000000000000, 1.000000000000000000 ) ) ;
#232 = APPROVAL ( #82, 'UNSPECIFIED' ) ;
#233 = FACE_OUTER_BOUND ( 'NONE', #217, .T. ) ;
#234 = AXIS2_PLACEMENT_3D ( 'NONE', #172, #28, #122 ) ;
#235 = EDGE_LOOP ( 'NONE', ( #3 ) ) ;
#236 = DIRECTION ( 'NONE',  ( 0.000000000000000000, 0.000000000000000000, 1.000000000000000000 ) ) ;
#237 = VERTEX_POINT ( 'NONE', #216 ) ;
#238 = ORIENTED_EDGE ( 'NONE', *, *, #199, .F. ) ;
#239 = CC_DESIGN_PERSON_AND_ORGANIZATION_ASSIGNMENT ( #124, #60, ( #36 ) ) ;
#240 = VERTEX_POINT ( 'NONE', #22 ) ;
#241 = AXIS2_PLACEMENT_3D ( 'NONE', #10, #262, #41 ) ;
#242 = CARTESIAN_POINT ( 'NONE',  ( 0.000000000000000000, 0.000000000000000000, 5.421010862427522170E-16 ) ) ;
#243 = AXIS2_PLACEMENT_3D ( 'NONE', #38, #89, #203 ) ;
#244 = VERTEX_POINT ( 'NONE', #140 ) ;
#245 = ORIENTED_EDGE ( 'NONE', *, *, #17, .F. ) ;
#246 = DIRECTION ( 'NONE',  ( 1.000000000000000000, 0.000000000000000000, -0.000000000000000000 ) ) ;
#247 = ADVANCED_FACE ( 'NONE', ( #205, #92 ), #162, .F. ) ;
#248 = ORIENTED_EDGE ( 'NONE', *, *, #155, .T. ) ;
#249 = CALENDAR_DATE ( 2025, 14, 8 ) ;
#250 = CARTESIAN_POINT ( 'NONE',  ( 0.000000000000000000, 0.000000000000000000, 8.250000000000000000 ) ) ;
#251 = CC_DESIGN_APPROVAL ( #120, ( #58 ) ) ;
#252 = DATE_TIME_ROLE ( 'creation_date' ) ;
#253 = DIRECTION ( 'NONE',  ( -1.000000000000000000, 0.000000000000000000, 0.000000000000000000 ) ) ;
#254 = CALENDAR_DATE ( 2025, 14, 8 ) ;
#255 = AXIS2_PLACEMENT_3D ( 'NONE', #260, #11, #253 ) ;
#256 = CC_DESIGN_APPROVAL ( #232, ( #177 ) ) ;
#257 = PERSON_AND_ORGANIZATION_ROLE ( 'design_supplier' ) ;
#258 = AXIS2_PLACEMENT_3D ( 'NONE', #62, #123, #220 ) ;
#259 = FACE_OUTER_BOUND ( 'NONE', #161, .T. ) ;
#260 = CARTESIAN_POINT ( 'NONE',  ( 0.000000000000000000, 0.000000000000000000, 4.500000000000000000 ) ) ;
#261 = ADVANCED_FACE ( 'NONE', ( #138, #233 ), #114, .T. ) ;
#262 = DIRECTION ( 'NONE',  ( -0.000000000000000000, -0.000000000000000000, 1.000000000000000000 ) ) ;
#263 = MANIFOLD_SOLID_BREP ( 'Boss-Extrude1', #52 ) ;
#264 = ORIENTED_EDGE ( 'NONE', *, *, #296, .T. ) ;
#265 = DIRECTION ( 'NONE',  ( 0.000000000000000000, -0.000000000000000000, 1.000000000000000000 ) ) ;
#266 = LOCAL_TIME ( 12, 59, 43.00000000000000000, #149 ) ;
#267 = FACE_OUTER_BOUND ( 'NONE', #170, .T. ) ;
#268 = VERTEX_POINT ( 'NONE', #117 ) ;
#269 =( LENGTH_UNIT ( ) NAMED_UNIT ( * ) SI_UNIT ( .MILLI., .METRE. ) );
#270 = CIRCLE ( 'NONE', #68, 34.50000000000000000 ) ;
#271 = CC_DESIGN_APPROVAL ( #301, ( #36 ) ) ;
#272 = EDGE_LOOP ( 'NONE', ( #148 ) ) ;
#273 = VERTEX_POINT ( 'NONE', #72 ) ;
#274 = ORIENTED_EDGE ( 'NONE', *, *, #13, .F. ) ;
#275 = APPROVAL_DATE_TIME ( #34, #232 ) ;
#276 = DIRECTION ( 'NONE',  ( -0.000000000000000000, -0.000000000000000000, 1.000000000000000000 ) ) ;
#277 = APPROVAL_DATE_TIME ( #101, #120 ) ;
#278 = FACE_OUTER_BOUND ( 'NONE', #300, .T. ) ;
#279 = CIRCLE ( 'NONE', #50, 10.75000000000000000 ) ;
#280 = APPROVAL_ROLE ( '' ) ;
#281 = CYLINDRICAL_SURFACE ( 'NONE', #91, 10.75000000000000000 ) ;
#282 = CALENDAR_DATE ( 2025, 14, 8 ) ;
#283 = PERSON_AND_ORGANIZATION_ROLE ( 'classification_officer' ) ;
#284 = ADVANCED_FACE ( 'NONE', ( #45, #210 ), #116, .F. ) ;
#285 = DIRECTION ( 'NONE',  ( 1.000000000000000000, 0.000000000000000000, 0.000000000000000000 ) ) ;
#286 = DIRECTION ( 'NONE',  ( 1.000000000000000000, 0.000000000000000000, 0.000000000000000000 ) ) ;
#287 = AXIS2_PLACEMENT_3D ( 'NONE', #111, #14, #109 ) ;
#288 = DIRECTION ( 'NONE',  ( -0.000000000000000000, -0.000000000000000000, 1.000000000000000000 ) ) ;
#289 = CONICAL_SURFACE ( 'NONE', #223, 28.39999999999999503, 1.047197551196596521 ) ;
#290 = DIRECTION ( 'NONE',  ( 1.000000000000000000, 0.000000000000000000, -0.000000000000000000 ) ) ;
#291 = ORIENTED_EDGE ( 'NONE', *, *, #31, .F. ) ;
#292 = PRODUCT ( '250814 STEP 3-400575-00_6822', '250814 STEP 3-400575-00_6822', '', ( #75 ) ) ;
#293 = FACE_OUTER_BOUND ( 'NONE', #193, .T. ) ;
#294 = VERTEX_POINT ( 'NONE', #77 ) ;
#295 = LOCAL_TIME ( 12, 59, 43.00000000000000000, #106 ) ;
#296 = EDGE_CURVE ( 'NONE', #166, #166, #143, .T. ) ;
#297 = CARTESIAN_POINT ( 'NONE',  ( 10.75000000000000000, 0.000000000000000000, -4.500000000000000888 ) ) ;
#298 = EDGE_LOOP ( 'NONE', ( #211 ) ) ;
#299 = VERTEX_POINT ( 'NONE', #115 ) ;
#300 = EDGE_LOOP ( 'NONE', ( #167 ) ) ;
#301 = APPROVAL ( #153, 'UNSPECIFIED' ) ;
#302 = VERTEX_POINT ( 'NONE', #297 ) ;
#303 = AXIS2_PLACEMENT_3D ( 'NONE', #227, #156, #184 ) ;
#304 = EDGE_LOOP ( 'NONE', ( #29 ) ) ;
#305 = TOROIDAL_SURFACE ( 'NONE', #67, 28.79999999999999005, 0.8000000000000022649 ) ;
#306 = EDGE_LOOP ( 'NONE', ( #98 ) ) ;
#307 = PERSON_AND_ORGANIZATION ( #84, #134 ) ;
#308 = DIRECTION ( 'NONE',  ( 1.000000000000000000, 0.000000000000000000, 0.000000000000000000 ) ) ;
#309 = SECURITY_CLASSIFICATION_LEVEL ( 'unclassified' ) ;
#310 = CC_DESIGN_PERSON_AND_ORGANIZATION_ASSIGNMENT ( #8, #7, ( #177 ) ) ;
#311 = ORIENTED_EDGE ( 'NONE', *, *, #183, .T. ) ;
#312 =( GEOMETRIC_REPRESENTATION_CONTEXT ( 3 ) GLOBAL_UNCERTAINTY_ASSIGNED_CONTEXT ( ( #185 ) ) GLOBAL_UNIT_ASSIGNED_CONTEXT ( ( #269, #144, #214 ) ) REPRESENTATION_CONTEXT ( 'NONE', 'WORKASPACE' ) );
#313 = DATE_AND_TIME ( #282, #295 ) ;
#314 = PERSON_AND_ORGANIZATION ( #84, #134 ) ;
#315 = APPLICATION_CONTEXT ( 'configuration controlled 3d designs of mechanical parts and assemblies' ) ;
#316 = ADVANCED_FACE ( 'NONE', ( #267, #186 ), #326, .T. ) ;
#317 = DIRECTION ( 'NONE',  ( -0.000000000000000000, -0.000000000000000000, 1.000000000000000000 ) ) ;
#318 = DIRECTION ( 'NONE',  ( -0.000000000000000000, -0.000000000000000000, 1.000000000000000000 ) ) ;
#319 = FACE_OUTER_BOUND ( 'NONE', #24, .T. ) ;
#320 = CIRCLE ( 'NONE', #243, 34.50000000000000000 ) ;
#321 = FACE_OUTER_BOUND ( 'NONE', #78, .T. ) ;
#322 = CARTESIAN_POINT ( 'NONE',  ( 0.000000000000000000, 11.00000000000000000, 8.250000000000000000 ) ) ;
#323 = VERTEX_POINT ( 'NONE', #94 ) ;
#324 = CIRCLE ( 'NONE', #241, 34.50000000000000000 ) ;
#325 = ORIENTED_EDGE ( 'NONE', *, *, #87, .T. ) ;
#326 = CYLINDRICAL_SURFACE ( 'NONE', #212, 34.50000000000000000 ) ;
#327 = CC_DESIGN_PERSON_AND_ORGANIZATION_ASSIGNMENT ( #176, #257, ( #177 ) ) ;
#328 = EDGE_LOOP ( 'NONE', ( #73 ) ) ;
#329 = DIRECTION ( 'NONE',  ( 1.000000000000000000, 0.000000000000000000, 0.000000000000000000 ) ) ;
ENDSEC;
END-ISO-10303-21;
